TabNabber Tabs   Musician Supported
  Tabs de Piano
Espa˝ol English
Franšais Русский
guitar

Guitar Tab, Accords



(0 from 0 votes)
532 Views, Last Update 1 month ago
by: BACHVS
guest

Pro Tabber
[Pro Tabber]
E|--------2--0--2-----|--2--0--------------|--------3--0-----5--|--2-----0--|--------3--2--3--5--|--3--2--0-----------|--
B|--------------------|--------3--2--3-----|--0--3--------2-----|-----------|-----2--------------|-----------3--2--0--|--
G|-----2--------------|-----------------2--|--------------------|--2-----2--|--------------------|--------------------|--
D|--0-----------------|--0-----------------|--------------------|-----0-----|--2--------0--------|--2-----------------|--
A|-----------4--------|--------------------|--------------0-----|-----------|--------------------|--------------0-----|--
D|--------------------|--------0-----4-----|--5-----2-----------|--0--------|--------------------|--------5-----------|--

Stave 2:

E|-----------------------|-----------:|--------------------|--------------------|--------------2--5--|-----5--3--2--3--|--|--
B|--2--3--5--3--2--0--2--|-----------:|-----2--5-----5--7--|--5--3--2--------2--|--------4--5--------|-----------------|--|--
G|-----------------------|--2--------:|--2--------4--------|--0--------4--2-----|-----2--------------|-----------------|--|--
D|-----------------------|-----2-----:|-----------4--------|--------2-----5-----|--4-----------1-----|--2--------------|--|--
A|--0--------------------|--------0--:|--0-----------------|--------------------|--------------------|-----------------|--|--
D|-----------0-----4-----|-----------:|--------------------|--------------------|--------------------|--------------2--|--|--


Login to Edit
Edit
YouTube
Video
View Sheet Music
Sheet
Music
Print
Download Midi
Speed:
Download Midi Intro (login for the full song)
Get
Intro
Sustain:
alt 1     alt 2

 Rate:
5 star
4 star
3 star
2 star
1 star
 

Comments (0)
 

No comments yet...

Comment on this tab   -   Unhelpful comments are exterminated.
  Your Guest Name:
      [Member Login]
  Comments:
 

Don't understand the tab?
See "How to Read Guitar Tabs".
Supported tags:
<i>italics</i>
<b>bold</b>
<u>underline</u>
<tab>tab lines</tab>
  Are you a spam robot?

If not, solve the equation:




[20744 TabNabbers online]


©2022 TabNabber.com - Musician Supported Contact us Advertising Merchandise Privacy Policy Terms of Use facebook Twitter