TabNabber Tabs   Musician Supported
  Tabs de Piano
Espa˝ol English
Franšais Русский
Artiste: # A B C D E F G H I J K L M N O P Q R S T U V W X Y Z
Piano

Piano Tab, Accords



(0 from 0 votes)
7,166 Views, Last Update 12 years ago
by: predator


Tabber
[Tabber]
It did not tab convert all the way so try it and see if it is right.

Intro-
Guitar 1
5|--d--d--d--d--d--d--d--d--d--d--d--d--d--d--d--d--d--d--d--d--d--d--d--d--|-
5|--d--d--d--d--d--d--d--d--d--d--d--d--d--d--d--d--d--d--d--d--d--d--d--d--|-

                                                                            X2
5|--d--d--d--d--d--d--d--d--d--d--d--d--e--e--e--e--e--e--f--f--f--f--f--f--|-
5|--C--C--C--C--C--C--C--C--C--C--C--C--e--e--e--e--e--e--f--f--f--f--f--f--|-

Guitar2
3|--d----------------d-d-d-|-
2|--a----------------a-a-a-|-
2|--d----------------d-d-d-|-

                    * * *
Riff 1
5|--d--d--d--d--d--d--d--d--d--d--d--d--d--d--d--d--d--d--d--d--d--d--d--d--|-
5|--d--d--d--d--d--d--d--d--d--d--d--d--d--d--d--d--d--d--d--d--d--d--d--d--|-
                                                                             X3

5|--d--d--d--d--d--d--d--d--d--d--d--d--e--e--e--e--e--e--f--f--f--f--f--f--|-
5|--C--C--C--C--C--C--C--C--C--C--C--C--e--e--e--e--e--e--f--f--f--f--f--f--|-

Guitar2
e|---------------------------------------------------------------------------------------------|

B|---------------------------------------------------------------------------------------------|


X4
D|---------------------------------------------------------------------------------------------|
A|-5h8p5-------5h8p5-------5h8p5-------5h8p5-------4h7p4-------4h7p4-------6h10p6-------6h10p6-|
D|-------0-0-0-------0-0-0-------0-0-0-------0-0-0-------0-0-0-------0-0-0--------0-0-0--------|
         * * *       * * *       * * *       * * *       * * *       * * *        * * *

Guitar3
e|---------------------------------------------------------------------------------------------|

B|---------------------------------------------------------------------------------------------|


X4
D|---------------------------------------------------------------------------------------------|
A|-5h8p5-------5h8p5-------5h8p5-------5h8p5-------4h7p4-------4h7p4-------6h10p6-------6h10p6-|
D|-------0-0-0-------0-0-0-------0-0-0-------0-0-0-------0-0-0-------0-0-0--------0-0-0--------|
         * * *       * * *       * * *       * * *       * * *       * * *        * * *

Guitar1
5|--d--d--d--d--d--d--d--d--d--d--d--d--d--d--d--d--d--d--d--d--d--d--d--d--|-
5|--d--d--d--d--d--d--d--d--d--d--d--d--d--d--d--d--d--d--d--d--d--d--d--d--|-


5|--d--d--d--d--d--d--d--d--d--d--d--d--|-
5|--C--C--C--C--C--C--C--C--C--C--C--C--|-

Guitar 2
3|--a-g-F-D-d-A-a-d-D-G-d-D-a-|-

Riff2
Both Guitar 2 and 3
4|-----------------------------------------------------c--------------------------------|-
3|--------------d--A--a--------------d--A--a--------D-----A--------------d--A--a--------|-
2|--d-d-d-d-d-d----------d-d-d-d-d-d----------d-d-d----------d-d-d-d-d-d----------d-d-d-|-
   * * * * * *          * * * * * *          * * *          * * * * * *          * * *

Ending one                   Ending two

3|--------------c-----c-----||-F-F-F-F-F-F-g-g-g-g-g-g-|-e
3|--------------------------||-d-d-d-d-d-d-D-D-D-D-D-D-|-
2|--G-d-G-d-G-d---g-F---g-F-||-----------------------d-|-

Riff1
Riff2
Riff1(This time without the ending)

Riff3
e|--------------------------------------------------------------------------------------------------------|

B|--------------------------------------------------------------------------------------------------------|


X2
D|--------------------------------------------------------------------------------------------------------|
A|-------------------5h8p5-------------------5h8p5-------------------4h7p4-------6h10p9-------------1---1-|
D|-0-0-0-0-0-0-0-0-0-------0-0-0-0-0-0-0-0-0-------0-0-0-0-0-0-0-0-0-------0-0-0--------0-0-0-0-0-0-1---1-|
   * * * * * * * * *       * * * * * * * * *       * * * * * * * * *       * * *        ** * * * *

Intro

Guitar2
e|-----------------------------------------------------------------------------------------------|

B|-----------------------------------------------------------------------------------------------|


X3
D|-----------------------------------------------------------------------------------------------|
A|-----------------------------------------------4-4-4-4-4-4-4-4-4-4-4-4-1-1-1-1-1-1-1-1-1-5-5-5-|
D|-0-0-0-0-0-0-0-0-0-0-0-0-0-0-0-0-0-0-0-0-0-0-0-0-0-0-0-0-0-0-0-0-0-0-0-0-0-0-0-0-0-0-0-0-0-0-0-|
   * * * * * * * * * * * * * * * * * * * * * * * * * * * * * * * * * * * * * * * * * * * ** * *

Guitar3
3|--d-d-d-d-d-d-a-d-A-d-d-d-d-d-d-a-d-A-a-A-a-g-f-g-f--C-C-C-C-C-C-a-C-A-C-C-C-C-C-C-a-C-A-a-A-a-g-f-g-f-|-
   * * * * * *   *   * * * * * *   *         *   *    * * * * * *   *   * * * * * *   *  
      *   *
3|--d-d-d-d-d-d-a-d-A-d-d-d-d-d-d-a-d-A-a-A-a-g-f-g-f--C-C-C-C-C-C-a-C-A-C-C-C-a-C-A-a-A-a-g-f-g-f-e-f-g-a-A-|-
   * * * * * *   *   * * * * * *   *         *   *    * * * * * *   *   * * *   *        
*   *

Solo
4|---d-----C--d--e--e--f--e--d--e--d--C--d--C----C--d--g---------g---|-
3|---------------------------------------------A---------------------|-

4|---e-f--e-d-e-d-c--------c--C--d-------d--C--d--e--e--f--e--d--e--d--|-
3|-------------------b-a-b---------------------------------------------|-

4|--d--C--------c----g----g----|-
3|--------A-a-A----------------|-

Riff2

Riff4
3|--d-d-d-d-d-d---d-d-d-d-d-d---d-d-d-d---d-d-d-d-d-d---d-d-d-d-d-d---d-d-d-d-------------c-----c-----|-
2|--a-a-a-a-a-a---a-a-a-a-a-a---a-a-a-a---a-a-a-a-a-a---a-a-a-a-a-a---a-a-a-a-G-d-G-d-G-d---g-F---g-F-|-
2|--d-d-d-d-d-d---d-d-d-d-d-d---d-d-d-d---d-d-d-d-d-d---d-d-d-d-d-d---d-d-d-d-------------------------|-
   * * * * * *   * * * * * *   * * * *   * * * * * *   * * * * * *   * * * *
3|--d-d-d-d-d-d---d-d-d-d-d-d---d-d-d-d---d-d-d-d-d-d---d-d-d-d-d-d---d-d-d-d-F-F-F-F-F-F-g-g-g-g-g-g-|-
3|----------------------------------------------------------------------------d-d-d-d-d-d-D-D-D-D-D-D-|-
2|--a-a-a-a-a-a---a-a-a-a-a-a---a-a-a-a---a-a-a-a-a-a---a-a-a-a-a-a---a-a-a-a-----------------------d-|-
2|--d-d-d-d-d-d---d-d-d-d-d-d---d-d-d-d---d-d-d-d-d-d---d-d-d-d-d-d---d-d-d-d-------------------------|-
   * * * * * *   * * * * * *   * * * *   * * * * * *   * * * * * *   * * * *

Riff1


Riff5
Guitar2
3|--------------------d-f-d-------------------d-f-d-------------------C-e-C-------D-g--D-------------------|-
2|--d-d-d-d-d-d-d-d-d-------d-d-d-d-d-d-d-d-d-------d-d-d-d-d-d-d-d-d-------d-d-d--------d-d-d-d-d-d-A---A-|-
2|---------------------------------------------------------------------------------------------------D---D-|-
   * * * * * * * * *       * * * * * * * * *       * * * * * * * * *       * * *        ** * * * *
Guitar3                                                                                  
                      X2
3|--------------------f-a--f-------------------f-a--f-------------------e-g--e-------g--A--g--------------------|-
2|--d-d-d-d-d-d-d-d-d-------d-d-d-d-d-d-d-d-d-------d-d-d-d-d-d-d-d-d----------d-d-d----------d-d-d-d-d-d-A---A-|-
2|--------------------------------------------------------------------------------------------------------D---D-|-
   * * * * * * * * *       * * * * * * * * *       * * * * * * * * *          * * *      
   * * * * * *

Riff4(Only Guitar2)

Guitar3 behind Guitar2

4|-------------------f-------f------C-------------------------|-
4|---------------------------C------e-------------------------|-
3|---d-------a-------a---------------------A------A-------A---|-
3|-----------d-----------------------------e------g-------g---|-
2|---a--------------------------------------------------------|-


Login to Edit
Edit
YouTube
Video
View Sheet Music
Sheet
Music
Voice / Instrument / Track Legend
Instr.
Map
Print
Speed:
Play Intro (login for the full song)
Play
Intro
Sustain:
Download midi (intro) ...

 Rate:
5 star
4 star
3 star
2 star
1 star
 

Comments (0)
 

No comments yet...

Comment on this tab   -   Unhelpful comments are exterminated.
  Your Guest Name:
      [Member Login]
  Comments:
 

Don't understand the tab?
See "How to Read Piano Tabs".
Supported tags:
<i>italics</i>
<b>bold</b>
<u>underline</u>
<tab>tab lines</tab>
  Are you a spam robot?

If not, solve the equation:




[455 TabNabbers online]
©2020 TabNabber.com - Musician Supported Contact us Advertising Merchandise Privacy Policy Terms of Use facebook Twitter