TabNabber Tabs   Musician Supported
  Tabs de Piano
Espa˝ol English
Franšais Русский
Artiste: # A B C D E F G H I J K L M N O P Q R S T U V W X Y Z
guitar

Guitar Tab, Accords



(0 from 0 votes)
6,658 Views, Last Update 12 years ago
by: djangoez
guest

New Tabber
[New Recruit]
intro
E|--3----3----|
B|--5----5----|
G|--5----5----|
D|--5----5----|
A|-------------| 
E|-------------|

Intro(1st guitar)
E|-------11--------9-11-12-----9------11-------9-11-12-----9---------|
B|--12-14--9-11-12--------11-12--12-14--9-11-12-------11-12--9-|
G|---------------------------------------------------------------------------|
D|---------------------------------------------------------------------------|
A|---------------------------------------------------------------------------|
E|---------------------------------------------------------------------------|

2nd guitar
E|----2---|---4---|---4--|---6--|
B|----4---|---5---|---5--|---7--|
G|----4---|---4---|---6--|---6--|
D|----4---|-------|---6--|-------|
A|--------|-------|------|--------|
E|--------|-------|------|--------| x2

verse
E|--4-----4-----4-----2----|
B|--4-----5-----5-----2----|
G|--4-----4-----6-----3----|
D|--6-----------6-----4-----|
A|--6-----------------4-----|
E|--4-----------------2-----| x2 

chorus
E|--2-----4-----4-----6----|
B|--4-----5-----5-----7----|
G|--4-----4-----6-----6----|
D|--4-----------6-----------|
A|---------------------------|
E|---------------------------| x2


Solo (2nd guitar use same chord as intro)
E|-------11--------9-11-12-----9------11-------9-11-12-----9--------|
B|--12-14--9-11-12--------11-12--12-14--9-11-12-------11-12----|
G|--------------------------------------------------------------------------|
D|--------------------------------------------------------------------------|
A|--------------------------------------------------------------------------|
E|--------------------------------------------------------------------------|

E|--14-12-11--12-14-16--9-11-12-------9-|
B|------------------------------11-12----------|
G|-----------------------------------------------|
D|-----------------------------------------------|
A|-----------------------------------------------|
E|-----------------------------------------------| x2

E|--14-12-11------|
B|-------------------|
G|-------------------|
D|-------------------|
A|-------------------|
E|-------------------| 


Login to Edit
Edit
YouTube
Video
View Sheet Music
Sheet
Music
Print
Speed:
Play Intro (login for the full song)
Play
Intro
Sustain:
Download midi (intro) ...

 Rate:
5 star
4 star
3 star
2 star
1 star
 

Comments (0)
 

No comments yet...

Comment on this tab   -   Unhelpful comments are exterminated.
  Your Guest Name:
      [Member Login]
  Comments:
 

Don't understand the tab?
See "How to Read Guitar Tabs".
Supported tags:
<i>italics</i>
<b>bold</b>
<u>underline</u>
<tab>tab lines</tab>
  Are you a spam robot?

If not, solve the equation:




[922 TabNabbers online]
©2020 TabNabber.com - Musician Supported Contact us Advertising Merchandise Privacy Policy Terms of Use facebook Twitter