TabNabber Tabs   Musician Supported
  Tabs de Piano
Espa˝ol English
Franšais Русский
Artiste: # A B C D E F G H I J K L M N O P Q R S T U V W X Y Z
bass

Bass Guitar Tab, Accords



(0 from 0 votes)
2,489 Views, Last Update 1 year ago
by: Simon
guest
[Guest]
G||-----------------|
D||--------4--3-----|
A||-----------------|
E||-------2--2--23-4|

   "yeah,yeah,yeah..."
G|-----------------|-----------------|-----4-4po3------|
D|-----4-4po3------|-----4-4po3------|------------4----|
A|------------4----|------------4-2-4|---4----------4--|
E|--------------2-4|-----------------|----------------2|

G|-----------------|
D|-------4--3------|
A|-----------------|
E|-2-2--2--2--23-4-|

[Verse 1]
   "It seems to me..."
G|-----------------|-----------------|-----4-4po3------|
D|-----4-4po3------|-----4-4po3------|------------4----|
A|------------4----|------------4-2-4|--------------4--|
E|--------------2-4|---4-------------|----------------2|

       "Watching your..."
G|-----------------|-----------------|-----------------|
D|-------4--3------|-----4-4po3------|-----4-4po3------|
A|-----------------|------------4----|------------4-2-4|
E|-2-2--2--2--23-4-|--------------2-4|-----------------|

       "City living..."
G|-----4-4po3------|-----------------|-----------------|
D|------------4----|-------4--3------|-----4-4po3------|
A|---4----------4--|-----------------|------------4----|
E|----------------2|-2-2--2--2--23-4-|--------------2-4|

G|-----------------|-----4-4po3------|-----------------|
D|-----4-4po3------|------------4----|-------4--3------|
A|------------4-2-4|--------------4--|-----------------|
E|---4-------------|----------------2|-2-2--2--2---2-4-|

   "Time to..."
G|-----------------|-----------------|-----4-4po3------|
D|-----4-4po3------|-----4-4po3------|------------4----|
A|------------4----|------------4-2-4|--------------4--|
E|--------------2-4|---4-------------|----------------2|

G|-----------------||
D|-----------------||
A|-----------------||
E|-2-2----2-2--3-4-||

[Chorus 1]
G|-----3-4-5-------|-----3-4-5-------|-----5-6-7-------|
D|-----------6-----|-----------------|-----------------|
A|-----------------|-----------------|-----------------|
E|-------------2-4-|-----------4-5-6-|-----------4-5-6-|

G|-----5-6-7-------|-----------------|-----------------|
D|-----------------|-----------------|-----------------|
A|-----------------|-4---4---4-4-5-6-|-6---------------|
E|------------6----|-------4---------|----3---4-4/6-4--|

G|-----------------|-----------------|
D|-----------------|---44-6--6-------|
A|--------------4-4|/6---------6-----|
E|---6-4-44--22----|---------------4-|

G|-----3-4-5-------|-----3-4-5-------|-----5-6-7-------|
D|-----------6-----|-----------------|-----------------|
A|-----------------|-----------------|-----------------|
E|-------------2-4-|-----------4-5-6-|-----------4-5-6-|

G|-----5-6-7-------|-----------------|-----------------|
D|-----------------|-----------------|-----------------|
A|-----------------|-4---4---4-4-5-6-|-6---------------|
E|------------6----|-------4---------|----3---4-4/6-4--|

G|-----------------|-----------------||
D|-----66--4-4-----|-----------------||
A|-------------6---|-----------------||
E|---4-----------4-|---4--2--4/7---4-||

[Verse 2]
   "Trouble started..."
G|-----------------|-----------------|-----4-4po3------|
D|-----4-44po3-----|-----4-44po3-----|------------4----|
A|-------------4---|-------------23-4|---4----------4--|
E|-4--4---------2-4|---4-------------|----------------2|

     "Wasting energy..."
G|-----------------|-----------------|-----------------|
D|-------4--3------|-----4-4po3------|-----4-4po3------|
A|-----------------|------------4----|------------4-2-4|
E|-2-2--2--2--23-4-|--------------2-4|---4-------------|

       "There is..."
G|-----4-4po3------|-----------------|-----------------|
D|------------4----|-------4--3------|-----4-4po3------|
A|---4----------4--|-----------------|------------4----|
E|----------------2|-2-2--2--2--23-4-|--------------2-4|


G|-----------------|-----4-4po3------|-----------------|
D|-----4-4po3------|------------4----|-------4--3------|
A|------------23-4-|---4----------4--|-----------------|
E|---4-------------|----------------2|-2-2--2--2--23-4-|

   "Time to..."
G|-----------------|-----------------|-----4-4po3------|
D|-----4-4po3------|-----4-4po3------|------------4----|
A|------------4----|------------23-4-|--------------4--|
E|--------------2-4|---4-------------|----------------2|

G|-----------------||
D|-------4--3------||
A|-----------------||
E|-2-2--2--2--23-4-||

[Chorus 2]
G|-----3-4-5-------|-----3-4-5-------|-----5-6-7-------|
D|-----------6-----|-----------------|-----------------|
A|-----------------|-----------------|-----------------|
E|-------------2-4-|-----------4-5-6-|-----------4-5-6-|

G|-----5-6-7-------|-----------------|-----------------|
D|-----------------|-----------------|-----------------|
A|-----------------|-4---4---4-4-5-6-|-6---------------|
E|------------6----|-------4---------|----3---4-4/6-4--|

G|-----------------|-4---------------|
D|-------------4-6-|-----6--6-4------|
A|-----2-4-4/6-----|------------6----|
E|---4-------------|---------------4-|

G|-----3-4-5-------|-----3-4-5-------|-----5-6-7-------|
D|-----------6-----|-----------------|-----------------|
A|-----------------|-----------------|-----------------|
E|-------------2-4-|-----------4-5-6-|-----------4-5-6-|

G|-----5-6-7-------|-----------------|-----------------|
D|-----------------|-----------------|-----------------|
A|-----------------|-4---4---4-4-5-6-|-6---------------|
E|------------6----|-------4---------|----3---4-4/6-4--|

G|----------------4|/5---------------|
D|------------4-6--|---66--6-4-------|
A|-----45-5/6------|-----------6-----|
E|---4-------------|-------------7-4-|

G|-----3-4-5-------|-----3-4-5-------|-----5-6-7-------|
D|-----------6-----|-----------------|-----------------|
A|-----------------|-----------------|-----------------|
E|-------------2-4-|-----------4-5-6-|-----------4-5-6-|

G|-----5-6-7-------|-----------------|-----------------|
D|-----------------|-----------------|-----------------|
A|-----------------|-4---4---4-4-5-6-|-6---------------|
E|------------6----|-------4---------|----3---4-4/6-4--|

G|-----------------|-----------------|
D|-----------------|-4-4-6-6-4-------|
A|------------6-6--|-----------6-----|
E|---4-2--2-4------|-------------7-4-|

G|-----3-4-5-------|-----3-4-5-------|-----5-6-7-------|
D|-----------6-----|-----------------|-----------------|
A|-----------------|-----------------|-----------------|
E|-------------2-4-|-----------4-5-6-|-----------4-5-6-|

G|-----5-6-7-------|-----------------|-----------------|
D|-----------------|-----------------|-----------------|
A|-----------------|-4---4---4-4-5-6-|-6---------------|
E|------------6----|-------4---------|----3---4-4/6-4--|

G|-----------------|4/5--------------|
D|-------------4-6-|---66--6-4-------|
A|-----2-4-4/6-----|-----------6-----|
E|---4-------------|-------------7-4-|

G|-----3-4-5-------|-----3-4-5-------|-----5-6-7-------|
D|-----------6-----|-----------------|-----------------|
A|-----------------|-----------------|-----------------|
E|-------------2-4-|-----------4-5-6-|-----------4-5-6-|

G|-----5-6-7-------|-----------------|-----------------|
D|-----------------|-----------------|-----------------|
A|-----------------|-4---4---4-4-5-6-|-6---------------|
E|------------6----|-------4---------|----3---4-4/6-4--|

G|-----------------|4----------------|
D|-------------4-6-|---66--6-4-------|
A|-----2-x-4/6-----|-----------6-----|
E|---4-------------|-------------7---|

These last 8 bars fade out.
G|-----3-4-5-------|-----3-4-5-------|-----5-6-7-------|
D|-----------6-----|-----------------|-----------------|
A|-----------------|-----------------|-----------------|
E|-4-----------2-4-|-----------4-5-6-|-----------4-5-6-|

    fading...         fading...         fading...
G|-----5-6-7-------|-----------------|-----------------|
D|-----------------|-----------------|-----------------|
A|-----------------|-4---4---4-4-5-6-|-6---------------|
E|------------6----|-------4---------|----3---4-4/6-4--|


Login to Edit
Edit
YouTube
Video
View Sheet Music
Sheet
Music
Print
Speed:
Play Intro (login for the full song)
Play
Intro
Sustain:
Download midi (intro) ...

 Rate:
5 star
4 star
3 star
2 star
1 star
 

Comments (0)
 

No comments yet...

Comment on this tab   -   Unhelpful comments are exterminated.
  Your Guest Name:
      [Member Login]
  Comments:
 

Don't understand the tab?
See "How to Read Guitar Tabs".
Supported tags:
<i>italics</i>
<b>bold</b>
<u>underline</u>
<tab>tab lines</tab>
  Are you a spam robot?

If not, solve the equation:




[141 TabNabbers online]
©2020 TabNabber.com - Musician Supported Contact us Advertising Merchandise Privacy Policy Terms of Use facebook Twitter