TabNabber Tabs   Musician Supported
  Tabs de Piano
Espa˝ol English
Franšais Русский
Artiste: # A B C D E F G H I J K L M N O P Q R S T U V W X Y Z
guitar

Guitar Tab, Accords



(0 from 0 votes)
2,672 Views, Last Update 1 year ago
by: Anonymous
guest
[Guest]
[intro]
e|----------------|----------------|----------------|----------------|
B|---1---1---1---1|---1---1---0---0|---1---1---1---1|---1---1---0---0|
G|----------------|----------------|----------------|----------------|
D|----------------|----------------|----------------|----------------|
A|-3---3---3---3--|-3---3---3---3--|-3---3---3---3--|-3---3---3---3--|
E|----------------|----------------|----------------|----------------|

[Verse1]
   If      you       gave    me        all   the         money
e|----------------|----------------|----------------|----------------|
B|---1---1---1---1|---1---1---1---1|---1---1---1---1|---1---1---1---1|
G|----------------|----------------|----------------|----------------|
D|----------------|----------------|----------------|----------------|
A|-3---3---3---3--|-3---3---3---3--|-3---3---3---3--|-3---3---3---3--|
E|----------------|----------------|----------------|----------------|
   I       would     buy     such      Or-     di-       nar-    y
e|----------------|----------------|----------------|----------------|
B|---1---1---1---1|---1---1---1---1|---1---1---1---1|---1---1---1---1|
G|----------------|----------------|----------------|----------------|
D|----------------|----------------|----------------|----------------|
A|-0---0---0---0--|-0---0---0---0--|-0---0---0---0--|-0---0---0---0--|
E|----------------|----------------|----------------|----------------|
things like tv       magazines   and   coffee  beans    I have such simple  
e|----------------|----------------|----------------|----------------|
B|---0---0---0---0|---0---0---0---0|---1---1---1---1|---1---1---1---1|
G|----------------|----------------|----------------|----------------|
D|----------------|----------------|----------------|----------------|
A|----------------|----------------|----------------|----------------|
E|-3---3---3---3--|-3---3---3---3--|-1---1---1---1--|-1---1---1---1--|
   needs
e|----------------|----------------|----------------|----------------|
B|---1---1---1---1|---1---1---0---0|---1---1---1---1|---1---1---0---0|
G|----------------|----------------|----------------|----------------|
D|----------------|----------------|----------------|----------------|
A|-3---3---3---3--|-3---3---3---3--|-3---3---3---3--|-3---3---3---3--|
E|----------------|----------------|----------------|----------------|

[Verse2]
   tried   on        thir-   teen      dif-    ferent    pairs   of
e|----------------|----------------|----------------|----------------|
B|---1---1---1---1|---1---1---1---1|---1---1---1---1|---1---1---1---1|
G|----------------|----------------|----------------|----------------|
D|----------------|----------------|----------------|----------------|
A|-3---3---3---3--|-3---3---3---3--|-3---3---3---3--|-3---3---3---3--|
E|----------------|----------------|----------------|----------------|



   shoes   and       not     one       made    me        want    to
e|-----------------|----------------|----------------|----------------|
B|---1---1---1---1-|---1---1---1---1|---1---1---1---1|---1---1---1---1|
G|-----------------|----------------|----------------|----------------|
D|-----------------|----------------|----------------|----------------|
A|-0---0---0---0---|-0---0---0---0--|-0---0---0---0--|-0---0---0---0--|
E|-----------------|----------------|----------------|----------------|
 leave this blessed house of mine     thats just fine   I really dont want 
e|----------------|----------------|----------------|----------------|
B|---0---0---0---0|---0---0---0---0|---1---1---1---1|---1---1---1---1|
G|----------------|----------------|----------------|----------------|
D|----------------|----------------|----------------|----------------|
A|----------------|----------------|----------------|----------------|
E|-3---3---3---3--|-3---3---3---3--|-1---1---1---1--|-1---1---1---1--|

[Hook]
   to      go        any where       Idontreallywanttogo any where
e|----------------|----------------|----------------|----------------|
B|---1---1---1---1|---1---1---1---1|---1---1---1---1|---1---1---1---1|
G|----------------|----------------|----------------|----------------|
D|----------------|----------------|----------------|----------------|
A|-3---3---3---3--|-3---3---3---3--|-0---0---0---0--|-0---0---0---0--|
E|----------------|----------------|----------------|----------------|
 Idontreallywanttogo any where         I         
e|----------------|----------------|----------------|
B|---1---1---1---1|---1---1---1---1|---3---3---3---3|
G|----------------|----------------|----------------|
D|----------------|----------------|----------------|
A|----------------|----------------|----------------|
E|-1---1---1---1--|-1---1---1---1--|-3---3---3---3--|


   I           am    dented  by  the   skies       that keeps me  up  at
e|----------------|----------------|----------------|----------------|
B|---1---1---1---1|---1---1---1---1|---0---0---0---0|---0---0---0---0|
G|----------------|----------------|----------------|----------------|
D|----------------|----------------|----------------|----------------|
A|-0---0---0---0--|-0---0---0---0--|----------------|----------------|
E|----------------|----------------|-3---3---3---3--|-3---3---3---3--|
 night and its not   a  gora pho bi    a   its just a   lack of air  sup-
e|----------------|----------------|----------------|----------------|
B|---1---1---1---1|---1---1---1---1|---3---3---3---3|---3---3---3---3|
G|----------------|----------------|----------------|----------------|
D|----------------|----------------|----------------|----------------|
A|----------------|----------------|----------------|----------------|
E|-1---1---1---1--|-1---1---1---1--|-3---3---3---3--|-3---3---3---3--|


   ply         that keeps me  up  at   night       I    know im getting 
e|----------------|----------------|----------------|----------------|
B|---1---1---1---1|---1---1---1---1|---0---0---0---0|---0---0---0---0|
G|----------------|----------------|----------------|----------------|
D|----------------|----------------|----------------|----------------|
A|-0---0---0---0--|-0---0---0---0--|----------------|----------------|
E|----------------|----------------|-3---3---3---3--|-3---3---3---3--|
   older   but im   told that im not   mo- men-tar-i     ly  out of  my
e|----------------|----------------|----------------|----------------|
B|---1---1---1---1|---1---1---1---1|---3---3---3---3|---3---3---3---3|
G|----------------|----------------|----------------|----------------|
D|----------------|----------------|----------------|----------------|
A|----------------|----------------|----------------|----------------|
E|-1---1---1---1--|-1---1---1---1--|-3---3---3---3--|-3---3---3---3--|
   mind
e|----------------|----------------|----------------|----------------|
B|---1---1---1---1|---1---1---0---0|---1---1---1---1|---1---1---0---0|
G|----------------|----------------|----------------|----------------|
D|----------------|----------------|----------------|----------------|
A|-3---3---3---3--|-3---3---3---3--|-3---3---3---3--|-3---3---3---3--|
E|----------------|----------------|----------------|----------------|


[verse3]
   dont    need      to      be        hos-    pi-       tal-    i-
e|----------------|----------------|----------------|----------------|
B|---1---1---1---1|---1---1---1---1|---1---1---1---1|---1---1---1---1|
G|----------------|----------------|----------------|----------------|
D|----------------|----------------|----------------|----------------|
A|-3---3---3---3--|-3---3---3---3--|-3---3---3---3--|-3---3---3---3--|
E|----------------|----------------|----------------|----------------|

  zed to        make    me        re-     a-          lize  that I've
e|----------------|----------------|----------------|----------------|
B|---1---1---1---1|---1---1---1---1|---1---1---1---1|---1---1---1---1|
G|----------------|----------------|----------------|----------------|
D|----------------|----------------|----------------|----------------|
A|-0---0---0---0--|-0---0---0---0--|-0---0---0---0--|-0---0---0---0--|
E|----------------|----------------|----------------|----------------|

  got a problem     no I  have n't  let me  be   I    really dont want
e|----------------|----------------|----------------|----------------|
B|---0---0---0---0|---0---0---0---0|---1---1---1---1|---1---1---1---1|
G|----------------|----------------|----------------|----------------|
D|----------------|----------------|----------------|----------------|
A|----------------|----------------|----------------|----------------|
E|-3---3---3---3--|-3---3---3---3--|-1---1---1---1--|-1---1---1---1--|




[hook]
   to      go        any where       Idontreallywanttogo any where
e|----------------|----------------|----------------|----------------|
B|---1---1---1---1|---1---1---1---1|---1---1---1---1|---1---1---1---1|
G|----------------|----------------|----------------|----------------|
D|----------------|----------------|----------------|----------------|
A|-3---3---3---3--|-3---3---3---3--|-0---0---0---0--|-0---0---0---0--|
E|----------------|----------------|----------------|----------------|
 Idontreallywanttogo any where         I         
e|----------------|----------------|----------------|
B|---1---1---1---1|---1---1---1---1|---3---3---3---3|
G|----------------|----------------|----------------|
D|----------------|----------------|----------------|
A|----------------|----------------|----------------|
E|-1---1---1---1--|-1---1---1---1--|-3---3---3---3--|

   I           am    dented  by  the   skies       that keeps me  up  at
e|----------------|----------------|----------------|----------------|
B|---1---1---1---1|---1---1---1---1|---0---0---0---0|---0---0---0---0|
G|----------------|----------------|----------------|----------------|
D|----------------|----------------|----------------|----------------|
A|-0---0---0---0--|-0---0---0---0--|----------------|----------------|
E|----------------|----------------|-3---3---3---3--|-3---3---3---3--|
 night and its not   a  gora pho bi    a   its just a   lack of air  sup-
e|----------------|----------------|----------------|----------------|
B|---1---1---1---1|---1---1---1---1|---3---3---3---3|---3---3---3---3|
G|----------------|----------------|----------------|----------------|
D|----------------|----------------|----------------|----------------|
A|----------------|----------------|----------------|----------------|
E|-1---1---1---1--|-1---1---1---1--|-3---3---3---3--|-3---3---3---3--|
   ply         that keeps me  up  at   night       I    know im getting 
e|----------------|----------------|----------------|----------------|
B|---1---1---1---1|---1---1---1---1|---0---0---0---0|---0---0---0---0|
G|----------------|----------------|----------------|----------------|
D|----------------|----------------|----------------|----------------|
A|-0---0---0---0--|-0---0---0---0--|----------------|----------------|
E|----------------|----------------|-3---3---3---3--|-3---3---3---3--|
   older   but im   told that im not   mo- men-tar-i     ly  out of  my
e|----------------|----------------|----------------|----------------|
B|---1---1---1---1|---1---1---1---1|---3---3---3---3|---3---3---3---3|
G|----------------|----------------|----------------|----------------|
D|----------------|----------------|----------------|----------------|
A|----------------|----------------|----------------|----------------|
E|-1---1---1---1--|-1---1---1---1--|-3---3---3---3--|-3---3---3---3--|

[hook]
 Idontreallywanttogo any where
e|----------------|----------------|----------------|----------------|
B|---1---1---1---1|---1---1---1---1|---1---1---1---1|---1---1---1---1|
G|----------------|----------------|----------------|----------------|
D|----------------|----------------|----------------|----------------|
A|-3---3---3---3--|-3---3---3---3--|-3---3---3---3--|-3---3---3---3--|
E|----------------|----------------|----------------|----------------|
 Idontreallywanttogo any where
e|----------------|----------------|----------------|----------------|
B|---1---1---1---1|---1---1---1---1|--1---1---1---1-|-1---1---1---1--|
G|----------------|----------------|----------------|----------------|
D|----------------|----------------|----------------|----------------|
A|-0---0---0---0--|-0---0---0---0--|-0---0---0---0--|-0---0---0---0--|
E|----------------|----------------|----------------|----------------|
 Idontreallywanttogo any where
e|----------------|----------------|----------------|----------------|
B|---1---1---1---1|---1---1---1---1|---1---1---1---1|---1---1---1---1|
G|----------------|----------------|----------------|----------------|
D|----------------|----------------|----------------|----------------|
A|----------------|----------------|----------------|----------------|
E|-1---1---1---1--|-1---1---1---1--|-1---1---1---1--|-1---1---1---1--|
 Idontreallywanttogo any where
e|----------------|----------------|----------------|----------------|
B|---3---3---3---3|---3---3---3---3|---3---3---3---3|---3---3---3---3|
G|----------------|----------------|----------------|----------------|
D|----------------|----------------|----------------|----------------|
A|----------------|----------------|----------------|----------------|
E|-3---3---3---3--|-3---3---3---3--|-3---3---3---3--|-3---3---3---3--|
   
   I           am    dented  by  the   skies       that keeps me  up  at
e|----------------|----------------|----------------|----------------|
B|-1--------------|----------------|-1--------------|----------------|
G|----------------|----------------|----------------|----------------|
D|----------------|----------------|----------------|----------------|
A|-3--------------|----------------|-0--------------|----------------|
E|----------------|----------------|----------------|----------------|
 night and its not   a  gora pho bi    a   its just a   lack of air  sup-
e|----------------|----------------|----------------|----------------|
B|-1--------------|----------------|-3--------------|----------------|
G|----------------|----------------|----------------|----------------|
D|----------------|----------------|----------------|----------------|
A|----------------|----------------|----------------|----------------|
E|-1--------------|----------------|-3--------------|----------------|
   ply         that keeps me  up  at   night       I    know im getting 
e|----------------|----------------|----------------|----------------|
B|-1--------------|----------------|-0--------------|----------------|
G|----------------|----------------|----------------|----------------|
D|----------------|----------------|----------------|----------------|
A|-0--------------|----------------|----------------|----------------|
E|----------------|----------------|-3--------------|----------------|
   older   but im   told that im not   mo- men-tar-i     ly  out of  my
e|----------------|----------------|----------------|----------------|
B|-1--------------|----------------|-3--------------|----------------|
G|----------------|----------------|----------------|----------------|
D|----------------|----------------|----------------|----------------|
A|----------------|----------------|----------------|----------------|
E|-1--------------|----------------|-3--------------|----------------|
    mind


Login to Edit
Edit
YouTube
Video
View Sheet Music
Sheet
Music
Print
Speed:
Play Intro (login for the full song)
Play
Intro
Sustain:
Download midi (intro) ...

 Rate:
5 star
4 star
3 star
2 star
1 star
 

Comments (0)
 

No comments yet...

Comment on this tab   -   Unhelpful comments are exterminated.
  Your Guest Name:
      [Member Login]
  Comments:
 

Don't understand the tab?
See "How to Read Guitar Tabs".
Supported tags:
<i>italics</i>
<b>bold</b>
<u>underline</u>
<tab>tab lines</tab>
  Are you a spam robot?

If not, solve the equation:




[613 TabNabbers online]
©2020 TabNabber.com - Musician Supported Contact us Advertising Merchandise Privacy Policy Terms of Use facebook Twitter