TabNabber Tabs   Musician Supported
  Tabs de Piano
Espa˝ol English
Franšais Русский
Artiste: # A B C D E F G H I J K L M N O P Q R S T U V W X Y Z
guitar

Guitar Tab, Accords



(0 from 0 votes)
1,489 Views, Last Update 1 year ago
by: pesca
guest
[Guest]
e|--------------------------------------------------------------------||
B|--------------------------------------------------------------------||
G|--------------------------------------------------------------------||
D|--------------2-2-0-0-----0-0-------------------2-2-0-0-----0----9--||
A|--0-0-3-3-0-0---------3-3-----3-3---0-0-3-3-0-0---------3-3------7--||
E|--------------------------------------------------------------------||





Riff 1

e|----------------------------------------||
B|----------------------------------------||
G|----------------------------------------||
D|-2-2h-5-5---2--2-2--0-0-------0-0-------||
A|-0-0h-3-3---0------------3-3-------3-3--||
E|----------------------------------------||


e|-----------------------------||
B|-----------------------------||
G|---7b9-7-5-------------------||
D|-----------7-5---------------||
A|---------------7-6-5-3-------||
E|-----------------------5-3-0-||


Riff 1

e|----------------------------------------||
B|----------------------------------------||
G|----------------------------------------||
D|-2-2h-5-5---2--2-2--0-0-------0-0-------||
A|-0-0h-3-3---0------------3-3-------3-3--||
E|----------------------------------------||



A5 C5 G5  x4 (con punteo 1) 
e|-----------------------------||
B|-----------------------------||
G|---7b9-7-5-------------------||
D|-----------7-5---------------||
A|---------------7-6-5-3-------||
E|-----------------------5-3-0-||





Riff 2

E|------------------------------------------------------------||
B|------------------------------------------------------------||
G|------5h7-7-7~-----4~---------------------------------------||
D|--5h7----------5-7------------------------------------------||
A|---------------------5-8-5-8-5-5-3-------(2)----------------||
E|----------------------------------5-3-5---------------------||





Riff 2  x2}

E|------------------------------------------------------------||
B|------------------------------------------------------------||
G|------5h7-7-7~-----4~---------------------------------------||
D|--5h7----------5-7------------------------------------------||
A|---------------------5-8-5-8-5-5-3-------(2)----------------||
E|----------------------------------5-3-5---------------------||

Dm  C  F/Bb  A

Riff 3

E|--------------------------------------------------------------||
B|--------------------------------------------------------------||
G|--------------------------------------------------------------||
D|--7-----------------------------9-------------------4~--------||
A|--5---3-5-----3-5---3-5-5~(x2)--7---5-7---3-5---3-5-----------||
E|----5-------5-----5---------------7-----5-----5---------------||





Riff 4
E|--------------------------------------||
B|--------------------------------------||
G|--------------------------------------||
D|--------------------------------------||
A|--------------------------------------||
E|-0-1-2-3-4-5-3---0-1-2-3-4-5----------||


Dejar sonando: Em/F

Riff 1
e|----------------------------------------||
B|----------------------------------------||
G|----------------------------------------||
D|-2-2h-5-5---2--2-2--0-0-------0-0-------||
A|-0-0h-3-3---0------------3-3-------3-3--||
E|----------------------------------------||


A5 C5 G5  x4  (con punteo 1)

Riff 2 con estos acordes:
E|------------------------------------------------------------||
B|------------------------------------------------------------||
G|------5h7-7-7~-----4~---------------------------------------||
D|--5h7----------5-7------------------------------------------||
A|---------------------5-8-5-8-5-5-3-------(2)----------------||
E|----------------------------------5-3-5---------------------||




Riff 2 sobre
E|------------------------------------------------------------||
B|------------------------------------------------------------||
G|------5h7-7-7~-----4~---------------------------------------||
D|--5h7----------5-7------------------------------------------||
A|---------------------5-8-5-8-5-5-3-------(2)----------------||
E|----------------------------------5-3-5---------------------||


Login to Edit
Edit
YouTube
Video
View Sheet Music
Sheet
Music
Print
Speed:
Play Intro (login for the full song)
Play
Intro
Sustain:
Download midi (intro) ...

 Rate:
5 star
4 star
3 star
2 star
1 star
 

Comments (0)
 

No comments yet...

Comment on this tab   -   Unhelpful comments are exterminated.
  Your Guest Name:
      [Member Login]
  Comments:
 

Don't understand the tab?
See "How to Read Guitar Tabs".
Supported tags:
<i>italics</i>
<b>bold</b>
<u>underline</u>
<tab>tab lines</tab>
  Are you a spam robot?

If not, solve the equation:




[208 TabNabbers online]
©2020 TabNabber.com - Musician Supported Contact us Advertising Merchandise Privacy Policy Terms of Use facebook Twitter