TabNabber Tabs   Musician Supported
  Tabs de Piano
Espa˝ol English
Franšais Русский
Artiste: # A B C D E F G H I J K L M N O P Q R S T U V W X Y Z
Piano

Piano Tab, Accords



(0 from 0 votes)
1,862 Views, Last Update 1 year ago
by: MAXI


New Tabber
[New Recruit]
6|-------------------------------------------|
5|-------------------------------------------|
4|-------------------------------------------|
4|-------------------------------------------|
3|--------------------------------------e|-----0---------------------------------------------|
B|---0---0---0-----------------------------------------|
G|---------0-----------------------------------------|
D|-2-------------------------------------------------|
A|--------------------------------------------------|
E|--------------------------------------------------|(2 times)

e|--------------------------------------------------|
B|----0----------------------------------------------|
G|--0---0---0------------------------------------------|
D|--------0------------------------------------------|
A|-2-------------------------------------------------|
E|--------------------------------------------------|(2 times)



B|-----0---3-0-----------------------------------------|
G|-0-2---2-----0-2-2-----------------------------------|
D|--------------------------------------------------|
Paani da..rang vekh ke (twice)



B|-----0---3-0-----------------------------------------|
G|-0-2---2-----0-2-2-----------------------------------|

Aankhiyaan jo anju rul de (thrice)





D|-14-14-14-14-12-14-9-9-12-12-11-9-7-9-9--------------|

Maahiya na aaya mera
Maahiya na aaya(twice)


D|-7-7-7-7-5-5-2-2-7-7-5-3-5-5---------------|

Raanjhana na aaya mera
Maahiya na aaya

D|-7-7-5-5-5-4-4-2-2-5-4-2-0-2-2-------------|

Maahiya na aaya mera
Raanjhana na aaya




(same goes as mukhda for following lines)

Aankhaan da..noor vekh ke
Aankhaan da..noor vekh ke
Aankhiyaan jo anju rul de
Aankhiyaan jo anju rul de
Aankhiyaan jo anju rul de



D|-14-14-14-14-12-12-9-12-11-9-7-7----------------|

Kamli ho gayi tere bina
Aaja raanjhan mere(twice)




D|-7-7-7-5-9-7-5-2-5-4-2-0-2---------------|

Baarish barkha sab kuch beh gaya
Aaya nahi jind mere(twice)
(then again same as mukhda)


D|-5-5-5-4-5-5-2---------------------|

Kothe utte baihke


D|-4-4-4-2-4-4-0---------------------|

Aankhiyaan milaunde




D|-2-2-2-2-----2-2----------------------------------------|
A|---------2-2---------------------------------------|

Na jaana main tu kabhi chod-----|
3|-------------------------------------------|
2|-------------------------------------------|
1|-------------------------------------------|


Login to Edit
Edit
YouTube
Video
View Sheet Music
Sheet
Music
Voice / Instrument / Track Legend
Instr.
Map
Print
Speed:
Play Intro (login for the full song)
Play
Intro
Sustain:
Download midi (intro) ...

 Rate:
5 star
4 star
3 star
2 star
1 star
 

Comments (0)
 

No comments yet...

Comment on this tab   -   Unhelpful comments are exterminated.
  Your Guest Name:
      [Member Login]
  Comments:
 

Don't understand the tab?
See "How to Read Piano Tabs".
Supported tags:
<i>italics</i>
<b>bold</b>
<u>underline</u>
<tab>tab lines</tab>
  Are you a spam robot?

If not, solve the equation:




[234 TabNabbers online]
©2020 TabNabber.com - Musician Supported Contact us Advertising Merchandise Privacy Policy Terms of Use facebook Twitter