TabNabber Tabs   Musician Supported
  Tabs de Piano
Espa˝ol English
Franšais Русский
Artiste: # A B C D E F G H I J K L M N O P Q R S T U V W X Y Z
guitar

Guitar Tab, Accords



(0 from 0 votes)
2,913 Views, Last Update 4 years ago
by: Anonymous
guest
[Guest]
e-0---0---0h2---0-------0---2-4.-----6---6---5-\-----4---4---5-\--------
B-0-----------------3.--0------------6---6---5-\-----4---4---5-\--------
G-1----------------------------------7---7---6-\-----5---5---6-\--------
D-----------------------------------------------------------------------
A-----------------------------------------------------------------------
E-0---------------------------------------------------------------------


e-6---6---5-\-----4---4---5-\-------------------------------------------
B-6---6---5-\-----4---4---5-\-------------------------------------------
G-7---7---6-\-----5---5---6-\-------------------------------------------
D-----------------------------------------------------------------------
A-----------------------------------------------------------------------
E-----------------------------------------------------------------------


e-2---2---2---2.--0h2p0------5-------5---5---5---5.--4-------0---0------
B-3--------------------------5-------4---4---4---4.--5-------3---0------
G-2--------------------------2-----------------------4-------4---1------
D-0----------------------------------4---4---4---4.--2-------6---2------
A-----------------4------------------3---3---3---3.---------------------
E-----------------------------------------------------------------------


e-4-----------0---10~---------------------------------------------------
B-5---0-----------12~---------------------------------------------------
G-7-------7-------13~---------------------------------------------------
D-----------------------------------------------------------------------
A-----------------------------------------------------------------------
E-0---------------------------------------------------------------------


Part 2

e-------------------------2<14>-------0<12>-----------------------------
B---------------------2-------------------------------------------------
G-1--h2---2-------2------ natural harmonics ----------------------------
D-------------2-------------------------------2-------------------------
A---------0-------------------------------------------------------------
E-----------------------------------------------------------------------


Login to Edit
Edit
YouTube
Video
View Sheet Music
Sheet
Music
Print
Speed:
Play Intro (login for the full song)
Play
Intro
Sustain:
Download midi (intro) ...

 Rate:
5 star
4 star
3 star
2 star
1 star
 

Comments (0)
 

No comments yet...

Comment on this tab   -   Unhelpful comments are exterminated.
  Your Guest Name:
      [Member Login]
  Comments:
 

Don't understand the tab?
See "How to Read Guitar Tabs".
Supported tags:
<i>italics</i>
<b>bold</b>
<u>underline</u>
<tab>tab lines</tab>
  Are you a spam robot?

If not, solve the equation:




[1241 TabNabbers online]
©2020 TabNabber.com - Musician Supported Contact us Advertising Merchandise Privacy Policy Terms of Use facebook Twitter