TabNabber Tabs   Musician Supported
  Tabs de Piano
Espa˝ol English
Franšais Русский
Artiste: # A B C D E F G H I J K L M N O P Q R S T U V W X Y Z
guitar

Guitar Tab, Accords

Featured! Featured! Featured!

(4 from 2 votes)
13,722 Views, Last Update 8 years ago
by: iiiiiiiiii
guest

Pro Tabber
[Pro Tabber]
e|---2---2---2---2---2---2---2---2---0---0---0---0-------------3-3---|
b|---3---3---3---3---1---1---1---1---1---1---1---1---1---1---1-3-3---|
g|---2---2---2---2---2---2---2---2---2---2---2---2---0---0---0-0-0---|
d|-----0-------0-------0-------0-----2---2---2---2---2---2---2-------|
a|-------------------------------------0-------0-------3-------------|
e|-------------------------------------------------------------3-3---|

     1 & 2 & 3 & 4 & 1 & 2 & 3 & 4 & 1 & 2 & 3 & 4 & 1 & 2 & 3 & 4 & 


e|---3---------------0---------------0-------------------------------|
b|---3---------------0---3-0---------0-------------------------------|
g|---0---------------1-------2-0-----1-------------------------------|
d|-------------------2-----------2-0-2-------------------------------|
a|-------------------2---------------2-------------------------------|
e|---3---------------0---------------0-------------------------------|

     1 & 2 & 3 & 4 & 1 & 2 & 3 & 4 & 1 & 2 & 3 & 4 & 1 & 2 & 3 & 4 & 


e|-------------------------------------------------------------------|
b|---0---0---0---0---------------------------------------------------|
g|---1---1---1---1---1---1---1---1-----------------------------------|
d|-----2---2---2---2-2---2---2---2---2---2---2---2---2---2---4---4---|
a|---------------------4---4---4---4-4---4---4---4---4---4---6---6---|
e|-------------------------------------5---5---5---5---5---5---7---7-|

     1 & 2 & 3 & 4 & 1 & 2 & 3 & 4 & 1 & 2 & 3 & 4 & 1 & 2 & 3 & 4 & 


e|---------------------------------------------------2---------------|
b|---0---0---0---0-----------------------------------3---------------|
g|---1---1---1---1---2---2---2---2-------------------2---------------|
d|-----2---2---2---2-4---4---4---4-------------------0---------------|
a|---------------------5---5---5---5---------------------------------|
e|-------------------------------------------------------------------|
     1 & 2 & 3 & 4 & 1 & 2 & 3 & 4 & 1 & 2 & 3 & 4 & 1 & 2 & 3 & 4 & 


Login to Edit
Edit
YouTube
Video
View Sheet Music
Sheet
Music
Print
Speed:
Play Intro (login for the full song)
Play
Intro
Sustain:
Download midi (intro) ...

2 Votes
5 star: 50%  (1)
4 star:  (0)
3 star: 50%  (1)
2 star:  (0)
1 star:  (0)
0 star:  (0)
 Rate:
5 star
4 star
3 star
2 star
1 star
 

Comments (0)
 

No comments yet...

Comment on this tab   -   Unhelpful comments are exterminated.
  Your Guest Name:
      [Member Login]
  Comments:
 

Don't understand the tab?
See "How to Read Guitar Tabs".
Supported tags:
<i>italics</i>
<b>bold</b>
<u>underline</u>
<tab>tab lines</tab>
  Are you a spam robot?

If not, solve the equation:




[551 TabNabbers online]
©2020 TabNabber.com - Musician Supported Contact us Advertising Merchandise Privacy Policy Terms of Use facebook Twitter