TabNabber Tabs   Musician Supported
  Tabs de Piano
Espa˝ol English
Franšais Русский
Artiste: # A B C D E F G H I J K L M N O P Q R S T U V W X Y Z
bass

Bass Guitar Tab, Accords



(0 from 0 votes)
7,256 Views, Last Update 9 years ago
by: jimmipop4@hotmail.com
guest

New Tabber
[New Recruit]
(1)
G|----------------------------------------------------------------
D|---------------------------2--0--2--2----2-0-2-4-5--------------
A|--2--2-2--5--0---0---2--5---------------------------------------
E|----------------------------------------------------------------

   one day ill have enough to give more   
G|----------------------------------------------------------------
D|--5--4--2----------2------2-2-----------------------------------
A|-----------5-5-2-5------5---------------------------------------
E|----------------------------------------------------------------

   ill wait to hear your final call
G|----------------------------------------------------------------

*** This tab is shown in a limited preview until its copyright status can be verified. ***

Login to Edit
Edit
YouTube
Video
View Sheet Music
Sheet
Music
Print
Speed:
Play Intro (login for the full song)
Play
Intro
Sustain:
Download midi (intro) ...




Ratings disabled
 

Comments (0)
 

No comments yet...

Comment on this tab   -   Unhelpful comments are exterminated.
  Your Guest Name:
      [Member Login]
  Comments:
 

Don't understand the tab?
See "How to Read Guitar Tabs".
Supported tags:
<i>italics</i>
<b>bold</b>
<u>underline</u>
<tab>tab lines</tab>
  Are you a spam robot?

If not, solve the equation:




[636 TabNabbers online]
©2020 TabNabber.com - Musician Supported Contact us Advertising Merchandise Privacy Policy Terms of Use facebook Twitter