TabNabber Tabs   Musician Supported
  Tabs de Piano
Espa˝ol English
Franšais Русский
Artiste: # A B C D E F G H I J K L M N O P Q R S T U V W X Y Z
guitar

Guitar Tab, Accords



(5 from 1 votes)
12,417 Views, Last Update 10 years ago
by: kvbthree


New Tabber
[New Recruit]
-Tuning Eb Ab Db Gb Bb Eb.  Down tuned ½ steps
Play it along with the song and you'll get it.  It helps to listen to the 
music.  Tell me what you think.

Intro Riff
Eb---------------------------------------------------------
Bb------------13-----------------------------12------------
Gb-9-10-9---9----9-9----------------9----------------------
Db-------------------12-12—-9-10-12---12--12----12-12-10-10
Ab---------------------------------------------------------
Eb---------------------------------------------------------

Eb---------------------------------------------------------
Bb--------------------13-----------------------------12----
Gb---------9-10-9---9----9-9----------------9--------------
Db-9-10-12-------------------12-12—-9-10-12---12--12----12-
Ab---------------------------------------------------------
Eb---------------------------------------------------------

Eb---------------------------------------------------------
Bb---------------------------------------------------------
Gb---------------------------------------------------9-----
Db-12-10-10----9-10-12-10-----10-10-12-10-9------------12--
Ab-------------------------8----------------10-11----------
Eb------------------------------------------------12-------

Eb---------------------------------------------------------
Bb---------------------------------------------------------
Gb-10-9-------------9-10-9---------------------------------
Db------10-10-10-12--------9-10----------------------------
Ab---------------------------------------------------------
Eb---------------------------------------------------------

Fast Riff (Play this twice, one right after the other.)
Eb---------------------------------------------------------
Bb---------------------------------------------------------
Gb-9-10-9----9--------------------------------9-10-12-10-9-
Db--------12---12-10-9-10-9-----------9-10-12--------------
Ab--------------------------12-10-12-----------------------
Eb---------------------------------------------------------




Fast Riff Cont…
Eb---------------------------12-10-12--12--12--12-10-12--12
Bb-----------------9-10-12-13--------13--12--10--------13--
Gb-10-9----9-10-12-----------------------------------------
Db------12-------------------------------------------------
Ab---------------------------------------------------------
Eb---------------------------------------------------------

Eb---12--12-13-12-10---------------------------------------
Bb-12--10------------13-12-10-9----------------------------
Gb---------------------------------------------------------
Db---------------------------------------------------------
Ab---------------------------------------------------------
Eb---------------------------------------------------------

Let me know if I can improve it or add more or whatever.  I'd love to
have the whole song so maybe you can tell me the next part.  Tell me what you 
think.

Thanks,
kvbthree.


Login to Edit
Edit
YouTube
Video
View Sheet Music
Sheet
Music
Print
Speed:
Play Intro (login for the full song)
Play
Intro
Sustain:
Download midi (intro) ...

1 Votes
5 star: 100%  (1)
4 star:  (0)
3 star:  (0)
2 star:  (0)
1 star:  (0)
0 star:  (0)
 Rate:
5 star
4 star
3 star
2 star
1 star
 

Comments (0)
 

No comments yet...

Comment on this tab   -   Unhelpful comments are exterminated.
  Your Guest Name:
      [Member Login]
  Comments:
 

Don't understand the tab?
See "How to Read Guitar Tabs".
Supported tags:
<i>italics</i>
<b>bold</b>
<u>underline</u>
<tab>tab lines</tab>
  Are you a spam robot?

If not, solve the equation:




[62683 TabNabbers online]
©2021 TabNabber.com - Musician Supported Contact us Advertising Merchandise Privacy Policy Terms of Use facebook Twitter