TabNabber Tabs   Musician Supported
  Tabs de Piano
Espa˝ol English
Franšais Русский
guitar

Guitar Tab, Accords



(0 from 0 votes)
2,273 Views, Last Update 1 year ago
by: DonaldTrump


New Tabber
[New Recruit]
e|------3-----------3-----------3-----------3-----|
B|---1-----1-----1-----1-----1-----1-----1-----1--|
G|------------------------------------------------|
D|------------------------------------------------|
A|0-----------0-----------0-----------0-----------|
E|------------------------------------------------|
 
e|------2-----------2-----------2-----------2-----|
B|---0-----0-----0-----0-----0-----0-----0-----0--|
G|0-----------0-----------0-----------0-----------|
D|------------------------------------------------|
A|------------------------------------------------|
E|------------------------------------------------|

e|------3-----------5-----------3-----------5-----|
B|---1-----1-----1-----1-----1-----1-----1-----1--|
G|------------------------------------------------|
D|------------------------------------------------|
A|0-----------0-----------0-----------0-----------|
E|------------------------------------------------|
 
e|------2-----------3-----------2-----------5-----|
B|---0-----0-----0-----0-----0-----0-----0-----0--|
G|0-----------0-----------0-----------0-----------|
D|------------------------------------------------|
A|------------------------------------------------|
E|------------------------------------------------|


Login to Edit
Edit
YouTube
Video
View Sheet Music
Sheet
Music
Print
Download Midi
Speed:
Download Midi Intro (login for the full song)
Get
Intro
Sustain:
alt 1     alt 2

 Rate:
5 star
4 star
3 star
2 star
1 star
 

Comments (0)
 

No comments yet...

Comment on this tab
  Your Guest Name:
      [Member Login]
  Comments:
 

Don't understand the tab?
See "How to Read Guitar Tabs".
Supported tags:
<i>italics</i>
<b>bold</b>
<u>underline</u>
<tab>tab lines</tab>
  Are you a spam robot?

If not, solve the equation:




[63543 TabNabbers online]
©2024 TabNabber.com - Musician Supported Contact us Advertising Merchandise Privacy Policy Terms of Use facebook Twitter