TabNabber Tablature   Musician Supported
  Tablature de Piano
Espa˝ol English
Franšais Русский
Voir Artiste:
# A B C D E F G H I J K L M N O P Q R S T U V W X Y Z

Discussion Forums

Requests, Links, Advice and so much more!     [There are 35555 users currently online]
  [Advanced]
Forums > Website Related > aftercoma

3 years ago
aftercoma 2583 views  
1
replies
ikbal
[Guest]
C#|-----------------------------------------------------------------|
G#|-----------------------------------------------------------------|
E |--2--------------------------------------------------------------|
B |--2-------------------3\5---------6---6---6---6---6---6---6---6--|
F#|--0----0----4p3---0---1\3-0-0-0-0-5---5---5---5---5---5---5---5--|
B |-----0-0--0-4p3-0-0-0-----0-0-0-0---0---0---0---0---0---0---0----|
        .    .     .   .     . . . .   .   .   .   .   .   .   .

C#|-------------------------------------------------------------------|
G#|-------------------------------------------------------------------|
E |--2----------------------------------------------------------------|
B |--2-------------------3\5---------6---6---6---6---6---6---6---6----|
F#|--0----0----4p3---0---1\3-0-0-0-0-5---5---5---5---5---5---5---5-0--|
B |-----0-0--0-4p3-0-0-0-----0-0-0-0---0---0---0---0---0---0---0---0--|
        .    .     .   .     . . . .   .   .   .   .   .   .   .   .

[0:12-0:22]

C#|----------------------------------------------------------------------5*--|
G#|----------------------------------------------------------------------5*--|
E |----------------------------------------------------------------------5*--|
B |----6---6------------6---6------------6---6-------------------------------|
F#|----5---5------------5---5------------5---5----------------------0-0------|
B |--0---0---00000000-0---0---00000000-0---0---00000000-0-1-1-1-4-0-0-0------|
     .   .   ........ .   .   ........ .   .   ........ .        .

C#|-------------------------------------------------------------|
G#|-------------------------------------------------------------|
E |-------------------------------------------------------------|
B |----6---6---6---6---6---6---6---6---6---6--------------------|
F#|----5---5---5---5---5---5---5---5---5---5---0-1-1-1-1-1-1-1--|
B |--0---0---0---0---0---0---0---0---0---0---0-0-1-1-1-1-1-1-1--|
     .   .   .   .   .   .   .   .   .   .   .

[0:22-0:32]

C#|---------------------------------|-------------------------------------|
G#|---------------------------------|-------------------------------------|
E |--12--7--7-7---8--8-8-8-8-8-8-8--|--12--7--7-7---8--8-8-8-11-11-11-11--| x2
B |--x---x--x-x---x--x-x-x-x-x-x-x--|--x---x--x-x---x--x-x-x-x--x--x--x---|
F#|--10--5--5-5---6--6-6-6-6-6-6-6--|--10--5--5-5---6--6-6-6-9--9--9--9---|
B |---------------------------------|-------------------------------------|

[0:32-0:43]

C#|--17-----------------------------------|--12h13p13-----------------|
G#|-----18-15-----------------------------|-----------15----------15--|
E |-----------14-14-----------------------|--------------14-14--------|
B |-----------------15-14-14h15p14-12-12--|--------------------15-----|
F#|---------------------------------------|---------------------------|
B |---------------------------------------|---------------------------|

C#|--17-----------------------------------|--12h13p13-----------------|
G#|-----18-15-----------------------------|-----------15--------------|
E |-----------14-14-----------------------|--------------14-14----17--|
B |-----------------15-14-14h15p14-12-12--|--------------------15-----|
F#|---------------------------------------|---------------------------|
B |---------------------------------------|---------------------------|

[0:43-0:48]

C#|-----------------------------------------------------|
G#|-----------------------------------------------------|
E |--14-14-14-14-14-14-14\12---12-12-12-12-12-12-12-12--|
B |--x--x--x--x--x--x--x--x----x--x--x--x--x--x--x--x---|
F#|--12-12-12-12-12-12-12\10---10-10-10-10-10-10-10-10--|
B |-----------------------------------------------------|

C#|-----------------------------------------------|
G#|-----------------------------------------------|
E |--10-10-10-10-10-10-10-10-10-10-10-10-9-9-9-9--|
B |--x--x--x--x--x--x--x--x--x--x--x--x--x-x-x-x--|
F#|--8--8--8--8--8--8--8--8--8--8--8--8--7-7-7-7--|
B |-----------------------------------------------|

[0:48-0:53]

C#|--17-----------------------------------|--12h13p13-----------------|
G#|-----18-15-----------------------------|-----------15--------------|
E |-----------14-14-----------------------|--------------14-14----17--|
B |-----------------15-14-14h15p14-12-12--|--------------------15-----|
F#|---------------------------------------|---------------------------|
B |---------------------------------------|---------------------------|

[0:53-1:16]

C#|--------------|-----------------------------------------------------------------|
G#|--------------|-----------------------------------------------------------------|
E |--14----------|-----------------------------------------------------------------|
B |--x-----------|-----------------------------------------------------------------|
F#|--12----------|-----------------------------------------------------44----------|
B |-----000-000--|--000-000-000-000----000-1-1-1-1-4-1-000-000-000-000-44-1-1-1-1--|
        ... ...     ... ... ... ...    ...             ... ... ... ... ..

C#|-----------------------------------------------------------------|
G#|-----------------------------------------------------------------|
E |-----------------------------------------------------------------|
B |-----------------------------------------------------------------|
F#|-----------------------------------------------------44----------|
B |--000-000-000-000----000-1-1-1-1-4-1-000-000-000-000-44-1-1-1-1--|
     ... ... ... ...    ...             ... ... ... ... ..

C#|---------------------------------------------------------------------|
G#|---------------------------------------------------------------------|
E |---------------------------------------------------------------------|
B |---------------------6---6---6---6-----------------------------------|
F#|--1-000~-000~-000~---5---5---5---5-0-0-0-0-000-0-0----1-1-1---4-4-4--|
B |--1-000~-000~-000~-0---0---0---0---0-0-0-0-000-0-0--0-1-1-1-0-4-4-4--|
       ... ... ... .   .   .   .   . . . . ... . . .       

C#|-----------------------------------------------------------------|
G#|-----------------------------------------------------------------|
E |-----------------------------------------------------------------|
B |---------------------6---6---6---6-------------------------------|
F#|--1-000~-000~-000~---5---5---5---5-0-0-0-0-000-0-0----1-1-1------|
B |--1-000~-000~-000~-0---0---0---0---0-0-0-0-000-0-0--0-1-1-1-12\--|
       ... ... ... .   .   .   .   . . . . ... . . .

[1:16-1:32]

C#|------------------------------------------------------------------------------|
G#|-------------------9999999999999999------------------9999999999b9b9b9b9b9b9b--|
E |--7-77777777777777-6666666666666666-7-77777777777777-6666666666b6b6b6b6b6b6b--|
B |------------------------------------------------------------------------------|
F#|------------------------------------------------------------------------------|
B |------------------------------------------------------------------------------|

C#|------------------------------------|
G#|--55555555555555555555555555555555--|
E |--77777777777777777777777777777777--|
B |------------------------------------|
F#|------------------------------------|
B |------------------------------------|

[1:32-1:53]

C#|-------------------------------------------------------------------------------|
G#|-------------------------------------------------------------------------------|
E |-------------------------------------------------------------------------------|
B |-------------------------------------------------------------------------------|
F#|----------10-10---------10-10-8-8-8-8---------10-10---------10-10-10-12-12-12--|
B |--0-0-0-0-------0-0-0-0---------------0-0-0-0-------0-0-0-0--------------------|

C#|-------------------------------------|-----------------------------------|
G#|-------------------------------------|-----------------------------------|
E |-------------------------------------|-----------------------------------|
B |------------12-----12----------------|------------8-7--------------------|
F#|-------------------------------------|--------------------------8-8-7-5--|
B |--8-8-8-8-8----8-8----8-8-8-8-8-8-8--|--5-5-5-5-5-----5-5-5-5-5----------|

C#|-------------------------------------------------------------------------------|
G#|-------------------------------------------------------------------------------|
E |-------------------------------------------------------------------------------|
B |-------------------------------------------------------------------------------|
F#|----------10-10---------10-10-8-8-8-8---------10-10---------10-10-10-12-12-12--|
B |--0-0-0-0-------0-0-0-0---------------0-0-0-0-------0-0-0-0--------------------|

C#|-------------------------------------|-----------------------------------|
G#|-------------------------------------|-----------------------------------|
E |-------------------------------------|-----------------------------------|
B |------------12-----12----------------|------------8-7--------------------|
F#|-------------------------------------|--------------------------8-8-7-5--|
B |--8-8-8-8-8----8-8----8-8-8-8-8-8-8--|--5-5-5-5-5-----5-5-5-5-5----------|

[1:53-1:58]

C#|----------------------------------|
G#|----------------------------------|
E |----------------------------------|
B |--0----------------0--------------|
F#|--0-00000000000000-0-00000000000--|
B |--0-00000000000000-0-00000000000--|
       ..............   ...........

[1:59-2:09]

C#|--17-----------------------------------|--12h13p13-----------------|
G#|-----18-15-----------------------------|-----------15----------15--|
E |-----------14-14-----------------------|--------------14-14--------|
B |-----------------15-14-14h15p14-12-12--|--------------------15-----|
F#|---------------------------------------|---------------------------|
B |---------------------------------------|---------------------------|

C#|--17-----------------------------------|--12h13p13-----------------|
G#|-----18-15-----------------------------|-----------15--------------|
E |-----------14-14-----------------------|--------------14-14----17--|
B |-----------------15-14-14h15p14-12-12--|--------------------15-----|
F#|---------------------------------------|---------------------------|
B |---------------------------------------|---------------------------|

[2:09-2:14]

C#|-----------------------------------------------------|
G#|-----------------------------------------------------|
E |--14-14-14-14-14-14-14\12---12-12-12-12-12-12-12-12--|
B |--x--x--x--x--x--x--x--x----x--x--x--x--x--x--x--x---|
F#|--12-12-12-12-12-12-12\10---10-10-10-10-10-10-10-10--|
B |-----------------------------------------------------|

C#|-----------------------------------------------|
G#|-----------------------------------------------|
E |--10-10-10-10-10-10-10-10-10-10-10-10-9-9-9-9--|
B |--x--x--x--x--x--x--x--x--x--x--x--x--x-x-x-x--|
F#|--8--8--8--8--8--8--8--8--8--8--8--8--7-7-7-7--|
B |-----------------------------------------------|

[2:14-2:19]

C#|--17-----------------------------------|--12h13p13-----------------|
G#|-----18-15-----------------------------|-----------15--------------|
E |-----------14-14-----------------------|--------------14-14----17--|
B |-----------------15-14-14h15p14-12-12--|--------------------15-----|
F#|---------------------------------------|---------------------------|
B |---------------------------------------|---------------------------|

[2:19-2:29]

C#|-----------------------------------------------------|
G#|-----------------------------------------------------|
E |--2--------------------------------------------------|
B |--2-----------------------------------6---6---6---6--|
F#|--0----0----4p3---0-000000000000000---5---5---5---5--|
B |-----0-0--0-4p3-0-0-000000000000000-0---0---0---0----|
        .    .     .   ............... .   .   .   .

C#|-----------------------------------------------------|
G#|-----------------------------------------------------|
E |--2--------------------------------------------------|
B |--2-----------------------------------6---6---6---6--|
F#|--0----0----4p3---0-000000000000000---5---5---5---5--|
B |-----0-0--0-4p3-0-0-000000000000000-0---0---0---0----|
        .    .     .   ............... .   .   .   .
[2:30-2:55]

C#|-----------------------------------------------------|
G#|-----------------------------------------------------|
E |--2--------------------------------------------------|
B |--2-------------0-0-0-0---0-0-0-0---0-0-0-0----------|
F#|--0----0----4p3-0-0-0-0---0-0-0-0---0-0-0-0-0-0-1-3--|
B |-----0-0--0-4p3-0-0-0-0---0-0-0-0---0-0-0-0-0-0-1-3--|
        .    .     . . . .   . . . .   . . . . . .

C#|-----------------------------------------------------|
G#|-----------------------------------------------------|
E |--2--------------------------------------------------|
B |--2-------------0-0-0-0---0-0-0-0---0-0-0-0----------|
F#|--0----0----4p3-0-0-0-0---0-0-0-0---0-0-0-0-0-0-1-3--|
B |-----0-0--0-4p3-0-0-0-0---0-0-0-0---0-0-0-0-0-0-1-3--|
        .    .     . . . .   . . . .   . . . . . .

C#|-----------------------------------------------------|
G#|-----------------------------------------------------|
E |--2--------------------------------------------------|
B |--2-------------0-0-0-0---0-0-0-0---0-0-0-0----------|
F#|--0----0----4p3-0-0-0-0---0-0-0-0---0-0-0-0-0-0-1-3--|
B |-----0-0--0-4p3-0-0-0-0---0-0-0-0---0-0-0-0-0-0-1-3--|
        .    .     . . . .   . . . .   . . . . . .

C#|--------------------------------------------------------|
G#|--------------------------------------------------------|
E |--2-----------------------------------------------------|
B |--2-------------0-0-0-0---0-0-0-0---0-0-0-0-0-----------|
F#|--0----0----4p3-0-0-0-0---0-0-0-0---0-0-0-0-0-0-1h4-5\--|
B |-----0-0--0-4p3-0-0-0-0---0-0-0-0---0-0-0-0-0-----------|
        .    .     . . . .   . . . .   . . . . .




GUITAR 2

[0:00-0:11]

C#|-----------------------------------------------------------------|
G#|-----------------------------------------------------------------|
E |--2--------------------------------------------------------------|
B |--2-------------------3\5----------------------------------------|
F#|--0----0----4p3---0---1\3-0-0-0-0--------------------------------|
B |-----0-0--0-4p3-0-0-0-----0-0-0-0-6-0-6-0-6-0-6-0-6-0-6-0-6-0-6--|
        .    .     .   .     . . . .   .   .   .   .   .   .   .

C#|-------------------------------------------------------------------|
G#|-------------------------------------------------------------------|
E |--2----------------------------------------------------------------|
B |--2-------------------3\5------------------------------------------|
F#|--0----0----4p3---0---1\3-0-0-0-0-------------------------------0--|
B |-----0-0--0-4p3-0-0-0-----0-0-0-0-6-0-6-0-6-0-6-0-6-0-6-0-6-0-6-0--|
        .    .     .   .     . . . .   .   .   .   .   .   .   .   .

[0:12-0:22]

C#|----------------------------------------------------------------------|
G#|----------------------------------------------------------------------|
E |----------------------------------------------------------------------|
B |----------------------------------------------------------------------|
F#|-----------------------------------------------------------------0-0--|
B |--0-6-0-6-00000000-0-6-0-6-00000000-0-6-0-6-00000000-0-1-1-1-4-0-0-0--|
     .   .   ........ .   .   ........ .   .   ........ .        .

C#|-----------------------------------------------------|
G#|-----------------------------------------------------|
E |-----------------------------------------------------|
B |-----------------------------------------------------|
F#|--000000000-----0-0-0-0---000000000-1-1-1-1-1-1-1-1--|
B |--000000000-----0-0-0-0---000000000-1-1-1-1-1-1-1-1--|
     .........     . . . .   .........

[0:22-0:32]

C#|--------------------------------|--------------------------------|
G#|--------------------------------|--------------------------------|
E |--------------------------------|--------------------------------| x2
B |--5--0--0-0---1--1-1-1-1-1-1-1--|--5--0--0-0---1--1-1-1-4-4-4-4--|
F#|--5--0--0-0---1--1-1-1-1-1-1-1--|--5--0--0-0---1--1-1-1-4-4-4-4--|
B |--5--0--0-0---1--1-1-1-1-1-1-1--|--5--0--0-0---1--1-1-1-4-4-4-4--|

[0:32-0:43]

C#|------------------------------------------------------------|
G#|------------------------------------------------------------|
E |------------------------------------------------------------| x2
B |----------------------3-3-3-3-3-3-3-3-8-8-8-10-10-10-10-10--|
F#|--0-0---0-0-0-0--0--0-3-3-3-3-3-3-3-3-8-8-8-10-10-10-10-10--|
B |--0-0---0-0-0-0--0--0-3-3-3-3-3-3-3-3-8-8-8-10-10-10-10-10--|
     . .   . . . . . .

[0:43-0:48]

C#|------------------------------------------------------------------------------|
G#|------------------------------------------------------------------------------|
E |--7-7-7-7-7-7-7-7--5-5-5-5-5-5-5-5--10-10-10-10-10-10-10-10--3-3-3-3-5-5-5-5--|
B |--x-x-x-x-x-x-x-x--x-x-x-x-x-x-x-x--x--x--x--x--x--x--x--x---x-x-x-x-x-x-x-x--|
F#|--5-5-5-5-5-5-5-5--3-3-3-3-3-3-3-3--8--8--8--8--8--8--8--8---1-1-1-1-3-3-3-3--|
B |------------------------------------------------------------------------------|

[0:48-0:53]

C#|------------------------------------------------------------|
G#|------------------------------------------------------------|
E |------------------------------------------------------------|
B |----------------------3-3-3-3-3-3-3-3-8-8-8-10-10-10-10-10--|
F#|--0-0---0-0-0-0--0--0-3-3-3-3-3-3-3-3-8-8-8-10-10-10-10-10--|
B |--0-0---0-0-0-0--0--0-3-3-3-3-3-3-3-3-8-8-8-10-10-10-10-10--|
     . .   . . . . . .

[0:53-1:16]

C#|-------------|-----------------------------------------------------------------|
G#|-------------|-----------------------------------------------------------------|
E |--7----------|-----------------------------------------------------------------|
B |--x----------|-----------------------------------------------------------------|
F#|--5----------|-----------------------------------------------------44----------|
B |----000-000--|--000-000-000-000----000-1-1-1-1-4-1-000-000-000-000-44-1-1-1-1--|
       ... ...     ... ... ... ...    ...             ... ... ... ... ..

C#|-----------------------------------------------------------------|
G#|-----------------------------------------------------------------|
E |-----------------------------------------------------------------|
B |-----------------------------------------------------------------|
F#|-----------------------------------------------------44----------|
B |--000-000-000-000----000-1-1-1-1-4-1-000-000-000-000-44-1-1-1-1--|
     ... ... ... ...    ...             ... ... ... ... ..

C#|---------------------------------------------------------------------|
G#|---------------------------------------------------------------------|
E |---------------------------------------------------------------------|
B |---------------------------------------------------------------------|
F#|--1-000~-000~-000~-----------------0-0-0-0-000-0-0----1-1-1---4-4-4--|
B |--1-000~-000~-000~-0-6-0-6-0-6-0-6-0-0-0-0-000-0-0--0-1-1-1-0-4-4-4--|
       ... ... ... .   .   .   .   . . . . ... . . .       

C#|-----------------------------------------------------------------|
G#|-----------------------------------------------------------------|
E |-----------------------------------------------------------------|
B |-----------------------------------------------------------------|
F#|--1-000~-000~-000~-----------------0-0-0-0-000-0-0----1-1-1------|
B |--1-000~-000~-000~-0-6-0-6-0-6-0-6-0-0-0-0-000-0-0--0-1-1-1-12\--|
       ... ... ... .   .   .   .   . . . . ... . . .

[1:16-1:27]

C#|-----------------------------------------------------------------|
G#|-----------------------------------------------------------------|
E |--2--------------------------------------------------------------|
B |--2-------------------3\5----------------------------------------|
F#|--0----0----4p3---0---1\3-0-0-0-0--------------------------------|
B |-----0-0--0-4p3-0-0-0-----0-0-0-0-6-0-6-0-6-0-6-0-6-0-6-0-6-0-6--|
        .    .     .   .     . . . .   .   .   .   .   .   .   .

C#|-------------------------------------------------------------------|
G#|-------------------------------------------------------------------|
E |--2----------------------------------------------------------------|
B |--2-------------------3\5------------------------------------------|
F#|--0----0----4p3---0---1\3-0-0-0-0-------------------------------0--|
B |-----0-0--0-4p3-0-0-0-----0-0-0-0-6-0-6-0-6-0-6-0-6-0-6-0-6-0-6-0--|
        .    .     .   .     . . . .   .   .   .   .   .   .   .   .

[1:27-1:32]

C#|---------------------|
G#|--------6-6-----6-6--|
E |--------7-7-----7-7--|
B |--------0-0-----0-0--|
F#|---------------------|
B |---------------------|

[1:32-1:53]

C#|-------------------------------------------------------------------------------|
G#|-------------------------------------------------------------------------------|
E |-------------------------------------------------------------------------------|
B |-------------------------------------------------------------------------------|
F#|----------10-10---------10-10-8-8-8-8---------10-10---------10-10-10-12-12-12--|
B |--0-0-0-0-------0-0-0-0---------------0-0-0-0-------0-0-0-0--------------------|

C#|-------------------------------------|-----------------------------------|
G#|-------------------------------------|-----------------------------------|
E |-------------------------------------|-----------------------------------|
B |------------12-----12----------------|------------8-7--------------------|
F#|-------------------------------------|--------------------------8-8-7-5--|
B |--8-8-8-8-8----8-8----8-8-8-8-8-8-8--|--5-5-5-5-5-----5-5-5-5-5----------|

C#|-------------------------------------------------------------------------------|
G#|-------------------------------------------------------------------------------|
E |-------------------------------------------------------------------------------|
B |-------------------------------------------------------------------------------|
F#|----------10-10---------10-10-8-8-8-8---------10-10---------10-10-10-12-12-12--|
B |--0-0-0-0-------0-0-0-0---------------0-0-0-0-------0-0-0-0--------------------|

C#|-------------------------------------|-----------------------------------|
G#|-------------------------------------|-----------------------------------|
E |-------------------------------------|-----------------------------------|
B |------------12-----12----------------|------------8-7--------------------|
F#|-------------------------------------|--------------------------8-8-7-5--|
B |--8-8-8-8-8----8-8----8-8-8-8-8-8-8--|--5-5-5-5-5-----5-5-5-5-5----------|

[1:53-1:58]

C#|----------------------------------|
G#|----------------------------------|
E |----------------------------------|
B |--0----------------0--------------|
F#|--0-00000000000000-0-00000000000--|
B |--0-00000000000000-0-00000000000--|
       ..............   ...........

[1:59-2:09]

C#|------------------------------------------------------------|
G#|------------------------------------------------------------|
E |------------------------------------------------------------| x2
B |----------------------3-3-3-3-3-3-3-3-8-8-8-10-10-10-10-10--|
F#|--0-0---0-0-0-0--0--0-3-3-3-3-3-3-3-3-8-8-8-10-10-10-10-10--|
B |--0-0---0-0-0-0--0--0-3-3-3-3-3-3-3-3-8-8-8-10-10-10-10-10--|
     . .   . . . . . .

[2:09-2:14]

C#|------------------------------------------------------------------------------|
G#|------------------------------------------------------------------------------|
E |--7-7-7-7-7-7-7-7--5-5-5-5-5-5-5-5--10-10-10-10-10-10-10-10--3-3-3-3-5-5-5-5--|
B |--x-x-x-x-x-x-x-x--x-x-x-x-x-x-x-x--x--x--x--x--x--x--x--x---x-x-x-x-x-x-x-x--|
F#|--5-5-5-5-5-5-5-5--3-3-3-3-3-3-3-3--8--8--8--8--8--8--8--8---1-1-1-1-3-3-3-3--|
B |------------------------------------------------------------------------------|

[2:14-2:19]

C#|-------------------------------------------------------|
G#|-------------------------------------------------------|
E |-------------------------------------------------------|
B |----------------------3-3-3-3-3-3-3-3-1-1-1-1-1-1-1-1--|
F#|--0-0---0-0-0-0--0--0-3-3-3-3-3-3-3-3-1-1-1-1-1-1-1-1--|
B |--0-0---0-0-0-0--0--0-3-3-3-3-3-3-3-3-1-1-1-1-1-1-1-1--|
     . .   . . . . . .

[2:23-2:24]

C#|-------------------|
G#|-------------------|
E |-------------------|
B |-------------------|
F#|-------------------|
B |--0-6-0-6-0-6-0-6--|
     .   .   .   .

[2:24-2:28]

C#|--------------------------------------|
G#|--------------------------------------|
E |--2-----------------------------------|
B |--2-----------------------------------|
F#|--0----0----4p3---0-0000000000000000--|
B |-----0-0--0-4p3-0-0-0000000000000000--|
        .    .     .   ................

[2:30-2:55]

C#|-----------------------------------------------------|
G#|-----------------------------------------------------|
E |--2--------------------------------------------------|
B |--2-------------0-0-0-0---0-0-0-0---0-0-0-0----------|
F#|--0----0----4p3-0-0-0-0---0-0-0-0---0-0-0-0-0-0-1-3--|
B |-----0-0--0-4p3-0-0-0-0---0-0-0-0---0-0-0-0-0-0-1-3--|
        .    .     . . . .   . . . .   . . . . . .

C#|-----------------------------------------------------|
G#|-----------------------------------------------------|
E |--2--------------------------------------------------|
B |--2-------------0-0-0-0---0-0-0-0---0-0-0-0----------|
F#|--0----0----4p3-0-0-0-0---0-0-0-0---0-0-0-0-0-0-1-3--|
B |-----0-0--0-4p3-0-0-0-0---0-0-0-0---0-0-0-0-0-0-1-3--|
        .    .     . . . .   . . . .   . . . . . .

C#|-----------------------------------------------------|
G#|-----------------------------------------------------|
E |--2--------------------------------------------------|
B |--2-------------0-0-0-0---0-0-0-0---0-0-0-0----------|
F#|--0----0----4p3-0-0-0-0---0-0-0-0---0-0-0-0-0-0-1-3--|
B |-----0-0--0-4p3-0-0-0-0---0-0-0-0---0-0-0-0-0-0-1-3--|
        .    .     . . . .   . . . .   . . . . . .

C#|-------------------------------------------------------|
G#|-------------------------------------------------------|
E |--2----------------------------------------------------|
B |--2-------------0-0-0-0---0-0-0-0---0-0-0-0-0----------|
F#|--0----0----4p3-0-0-0-0---0-0-0-0---0-0-0-0-0-4-4-4-0--|
B |-----0-0--0-4p3-0-0-0-0---0-0-0-0---0-0-0-0-0-4-4-4-0--|
        .    .     . . . .   . . . .   . . . . . . . .


 
Reply

5 months ago
adam
[Guest]
interesting though perhaps a misplaced tab, is aftercoma the name of the song or the band?
 
Reply

The Disclaimer: We rarely monitor and have little to no control of the content posted here. View at your own risk.

Page Loaded in: 0.0781 seconds

 

 
TabNabber.com - User Supported     ----|---  Contact us  ---|--- Advertising ---|---  Privacy Policy ---|---  Terms of Use  ---|